Maschendrahtzaun - Stefan Raab - Guitar Tabs

Track 1
    
                                                                                                                                                                                                                                                                                                                                                                                                                                                                                                                                                                                                 
E|--------0-----0--------0-----0-|
B|--------0-----0--------0-----0-|
G|--------1-----1--------1-----1-|
D|--------2-----2--------2-----2-|
A|--------2-----2--------2-----2-|
E|--0-----0-----0--0-----0-----0-|

    
                                                                                                                                                                                                                                                                                                                                                                                                                                                                                                                                                                                                                                                                                                                                                                                                                                                                                                                                                                                                                                                                                                                                                                                              
E|-------------------------|------0-----0--------0-----0-|
B|-------------------------|------0-----0--------0-----0-|
G|-------------------------|------1-----1--------1-----1-|
D|--------------------1----|------2-----2--------2-----2-|
A|--------2-----4----------|------2-----2--------2-----2-|
E|--0----------------------|0-----0-----0--0-----0-----0-|

    
                                                                                                                                                                                                                                                                                                                                                                                                                                                                                                                                                                                                                                                                                                                                                                                                                                                                                                                                                                                                                                                                                                                                                                                              
E|--------4-----4--------4-----4-|-----------------------------|
B|--------6-----6--------6-----6-|-----------------------------|
G|--------4-----4--------4-----4-|-----------------------------|
D|--------6-----6--------6-----6-|------4-----4--------4-----4-|
A|--4-----4-----4--4-----4-----4-|------4-----4--------4-----4-|
E|-------------------------------|2-----2-----2--2-----2-----2-|

    
                                                                                                                                                                                                                                                                                                                                                                                                                                                                                                                                                                                                                                                                                                                                                                                                                                                                                                                                                                                                                                                                                                                                                                                              
E|----------------------------|-----------------------------|
B|----------------------------|-----------------------------|
G|----------------------------|-----------------------------|
D|--9-----9-----9--9-----8----|------7-----7--------8-----8-|
A|--9-----9-----9--9-----8----|------7-----7--------7-----7-|
E|--7-----7-----7--7-----6----|5-----5-----5--6-----6-----6-|

    
                                                                                                                                                                                                                                                                                                                                                                                                                                                                                                                                                                                                                                                                                                                                                                                                                                                                                                                                                                                                                                                                                                                                                                                              
E|--0-----0-----------4-----4-|-----------------------------|
B|--0-----0-----------6-----6-|-----------------------------|
G|--1-----1-----------4-----4-|-----------------------------|
D|--2-----2-----------6-----6-|------4-----4--------9-----9-|
A|--2-----2-----4-----4-----4-|------4-----4--------9-----9-|
E|--0-----0-------------------|2-----2-----2--7-----7-----7-|

    
                                                                                                                                                                                                                                                                                                                                                                                                                                                                                                                                                                                                 
E|----------------------------------|
B|----------------------------------|
G|----------------------------------|
D|----------------------------------|
A|----------------------------------|
E|--0-----0-----2--------0----------|

    
                                                                                                                                                                                                                                                                                                                                                                                                                                                                                                                                                                                                                                                                                                                                                                                                                                                                                                                                                                                                                                                                                                                                                                                              
E|-------------------------------|-----------------------------|
B|-------------------------------|-----------------------------|
G|-------------------------------|-----------------------------|
D|--------7-----7--------7-----7-|------8-----8--------8-----8-|
A|--------7-----7--------7-----7-|------7-----7--------7-----7-|
E|--5-----5-----5--5-----5-----5-|6-----6-----6--6-----6-----6-|

    
                                                                                                                                                                                                                                                                                                                                                                                                                                                                                                                                                                                                                                                                                                                                                                                                                                                                                                                                                                                                                                                                                                                                                                                              
E|--------0-----0--------0-----0-|------0-----0--------0-----0-|
B|--------0-----0--------0-----0-|------0-----0--------0-----0-|
G|--------1-----1--------1-----1-|------1-----1--------1-----1-|
D|--------2-----2--------2-----2-|------2-----2--------2-----2-|
A|--------2-----2--------2-----2-|------2-----2--------2-----2-|
E|--0-----0-----0--0-----0-----0-|0-----0-----0--0-----0-----0-|

    
                                                                                                                                                                                                                                                                                                                                                                                                                                                                                                                                                                                                                                                                                                                                                                                                                                                                                                                                                                                                                                                                                                                                                                                              
E|-------------------------------|--------------------------|
B|-------------------------------|--------------------------|
G|-------------------------------|--------------------------|
D|--------7-----7--------7-----7-|------7-----7--------8----|
A|--------7-----7--------7-----7-|------7-----7--------8----|
E|--5-----5-----5--5-----5-----5-|5-----5-----5--5-----6----|

    
                                                                                                                                                                                                                                                                                                                                                                                                                                                                                                                                                                                                                                                                                                                                                                                                                                                                                                                                                                                                                                                                                                                                                                                              
E|-------------------------------|--------------------------|
B|-------------------------------|--------------------------|
G|-------------------------------|--------------------------|
D|--------9-----9--------9-----9-|------9-----9--------8----|
A|--------9-----9--------9-----9-|------9-----9--------8----|
E|--7-----7-----7--7-----7-----7-|7-----7-----7--7-----6----|

    
                                                                                                                                                                                                                                                                                                                                                                                                                                                                                                                                                                                                                                                                                                                                                                                                                                                                                                                                                                                                                                                                                                                                                                                              
E|-------------------------------|0-----0-----------4-----4-|
B|-------------------------------|0-----0-----------6-----6-|
G|-------------------------------|1-----1-----------4-----4-|
D|--------7-----7--------8-----8-|2-----------------6-----6-|
A|--------7-----7--------7-----7-|2-----2-----4-----4-----4-|
E|--5-----5-----5--6-----6-----6-|0-----0-------------------|

    
                                                                                                                                                                                                                                                                                                                                                                                                                                                                                                                                                                                                                                                                                                                                                                                                                                                                                                                                                                                                                                                                                                                                                                                              
E|-------------------------------|--------------------------------|
B|-------------------------------|--------------------------------|
G|-------------------------------|--------------------------------|
D|--------4-----4--------9-----9-|--------------------------------|
A|--------4-----4--------9-----9-|--------------------------------|
E|--2-----2-----2--7-----7-----7-|0-----0-----2--------0----------|

About Maschen-Draht-Zaun : Stefan Raab's inspiration comes from his TV show TV total . The inspiration for the song comes from short (often involuntarily) clips from other German TV shows . For this song, Regina Zindler accused her neighbour because a snowberry bush (Knallerbsenstrauch) was growing into her chain-link fence . The two main points of the song's hilarity are the sheer banality of the lawsuit and the plaintiff's thick regional accent . The two buzzwords "Maschendrahtzaun" and "Knallerbsenstrauch" expose the main phonetic distinctions of the Saxon dialect Maschen-Draht-Zaun has a significant contribution from artist(s) Stefan Raab.

About Stefan Raab - Stefan Konrad Raab is a German entertainer, producer, musician and former television host . From 1999 to 2015, he hosted the late-night comedy talk show TV total . He has also created a number of other television shows Raab began his TV career hosting the comedy show Vivasion in 1993 . He became well known in 1994 after composing a hit single spoofing national football coach Berti Vogts . Raab is also known for his recurring role as producer, writer and performer of German entries to Eurovision Song Contest between 1998 and 2012 . He was initiator of the national pre-selection show Unser Star für Oslo ("Our Star for Oslo"), in

tabs and chords, guitar tabs, music transcription, music technology, deep learning, music information retrieval, transcribe into tabs & chords, chordify, music renditions, songsterr, reverbnation, tabulature, bollywood chords, ultimate guitar, yousician, guitar lessons, acoustic guitar, electric guitar, guitar tuner, 911 tabs